Page 1 of 1

Cider's guitar tabs

Posted: August 15th, 2016, 4:43 pm
by LadyCider
I was bored so I made this. Kor showed me the sheet music on the flute a couple weeks ago. I figured not everybody knows music theory so a tab would be helpful. Really easy song to play :)

E|-------------------------------------------------
B|--12----------12---------------------------------
G|-----14-12-14----12----12-------------------12-14
D|--------------------14----12-14-12----12-14------
A|-----------------------------------14------------
E|-------------------------------------------------

|-----------------12------------------------------
|--12-13-15-12-15----15-12----------12------------
|--------------------------12-14-14----12-------12
|-----------------------------------------14-12---
|-------------------------------------------------
|-------------------------------------------------

|-------------------------------------------------------------------------------
|--------------------12-13-12----------12-------------------------12-13---------
|--14-14-14-14-14-14----------14-14-14----------------12-12-12-14----------12-14
|-----------------------------------------14-12-12-12-------------------14------
|-------------------------------------------------------------------------------
|-------------------------------------------------------------------------------

|-------------------------------------------------
|--12----------12---------------------------------
|-----14-12-14----12----12-------------------12-14
|--------------------14----12-14-12----12-14------
|-----------------------------------14------------
|-------------------------------------------------

|-----------------12------------------------------
|--12-13-15-12-15----15-12----------12------------
|--------------------------12-14-14----12-------12
|-----------------------------------------14-12---
|-------------------------------------------------
|-------------------------------------------------

Re: Cider's guitar tabs

Posted: August 18th, 2016, 9:36 pm
by LadyCider
Here is the guitar tab for the Main theme - Kimi ga ireba. Tabbed this according to the guitar part Tak Mastumoto (B'z guitar dude) plays in the main theme to Movie 20. All thanks to Kor, again, of course. He did all the hard work and actually made a music sheet of it and helped me with all the hard parts of transcribing. Thank you Kor-sama :D
E|-------------------------------------------------
B|-----------13----------13h14-13--11----11----11-13
G|--13-12-10----13-10-12-------------13----13------
D|-------------------------------------------------
A|-------------------------------------------------
E|-------------------------------------------------

|-----------------------------------------11/13--11---------------
|-----------11-------------------13----11----------14-13-13-11-13
|--13-12-10----13-12-10-12-13-10----13---------------------------
|----------------------------------------------------------------
|----------------------------------------------------------------
|----------------------------------------------------------------

|-------------------------------------------------
|-----------13----------13h14-13--11----11----11-13
|--13-12-10----13-10-12-------------13----13------
|-------------------------------------------------
|-------------------------------------------------
|-------------------------------------------------

|-----------------------------------------11/13--11---------------
|-----------11-------------------13----11----------14-13-13-11-13
|--13-12-10----13-12-10-12-13-10----13---------------------------
|----------------------------------------------------------------
|----------------------------------------------------------------
|----------------------------------------------------------------

|-----------16-13-12-13-16-15-13-11-11/13--11------------------
|--13p12--13-------------------------------------11----11-13---
|--------------------------------------------13----13-------13
|-------------------------------------------------------------
|-------------------------------------------------------------
|-------------------------------------------------------------

|--------------------10/13--11----11-13-15
|-----11-13-14-13-11----------13---------
|--13------------------------------------
|----------------------------------------
|----------------------------------------
|----------------------------------------